  0
SECTION
  2
HEADER
  9
$ACADVER
  1
AC1014
  9
$ACADMAINTVER
 70
     9
  9
$DWGCODEPAGE
  3
ANSI_1252
  9
$INSBASE
 10
0.0
 20
0.0
 30
0.0
  9
$EXTMIN
 10
-184.0673061356683
 20
-99.94576665626205
 30
0.0
  9
$EXTMAX
 10
182.5286987027827
 20
179.7284023107837
 30
0.0
  9
$LIMMIN
 10
0.0
 20
0.0
  9
$LIMMAX
 10
420.0
 20
297.0
  9
$ORTHOMODE
 70
     0
  9
$REGENMODE
 70
     1
  9
$FILLMODE
 70
     1
  9
$QTEXTMODE
 70
     0
  9
$MIRRTEXT
 70
     1
  9
$DRAGMODE
 70
     2
  9
$LTSCALE
 40
1.0
  9
$OSMODE
 70
    37
  9
$ATTMODE
 70
     1
  9
$TEXTSIZE
 40
2.5
  9
$TRACEWID
 40
1.0
  9
$TEXTSTYLE
  7
STANDARD
  9
$CLAYER
  8
CONSTRUCT
  9
$CELTYPE
  6
BYLAYER
  9
$CECOLOR
 62
   256
  9
$CELTSCALE
 40
1.0
  9
$DELOBJ
 70
     1
  9
$DISPSILH
 70
     0
  9
$DIMSCALE
 40
1.0
  9
$DIMASZ
 40
2.5
  9
$DIMEXO
 40
0.625
  9
$DIMDLI
 40
3.75
  9
$DIMRND
 40
0.0
  9
$DIMDLE
 40
0.0
  9
$DIMEXE
 40
1.25
  9
$DIMTP
 40
0.0
  9
$DIMTM
 40
0.0
  9
$DIMTXT
 40
2.5
  9
$DIMCEN
 40
2.5
  9
$DIMTSZ
 40
0.0
  9
$DIMTOL
 70
     0
  9
$DIMLIM
 70
     0
  9
$DIMTIH
 70
     0
  9
$DIMTOH
 70
     0
  9
$DIMSE1
 70
     0
  9
$DIMSE2
 70
     0
  9
$DIMTAD
 70
     1
  9
$DIMZIN
 70
     8
  9
$DIMBLK
  1

  9
$DIMASO
 70
     1
  9
$DIMSHO
 70
     1
  9
$DIMPOST
  1

  9
$DIMAPOST
  1

  9
$DIMALT
 70
     0
  9
$DIMALTD
 70
     3
  9
$DIMALTF
 40
0.03937007874016
  9
$DIMLFAC
 40
1.0
  9
$DIMTOFL
 70
     1
  9
$DIMTVP
 40
0.0
  9
$DIMTIX
 70
     0
  9
$DIMSOXD
 70
     0
  9
$DIMSAH
 70
     0
  9
$DIMBLK1
  1

  9
$DIMBLK2
  1

  9
$DIMSTYLE
  2
ISO-25
  9
$DIMCLRD
 70
     0
  9
$DIMCLRE
 70
     0
  9
$DIMCLRT
 70
     0
  9
$DIMTFAC
 40
1.0
  9
$DIMGAP
 40
0.625
  9
$DIMJUST
 70
     0
  9
$DIMSD1
 70
     0
  9
$DIMSD2
 70
     0
  9
$DIMTOLJ
 70
     0
  9
$DIMTZIN
 70
     8
  9
$DIMALTZ
 70
     0
  9
$DIMALTTZ
 70
     0
  9
$DIMFIT
 70
     3
  9
$DIMUPT
 70
     0
  9
$DIMUNIT
 70
     2
  9
$DIMDEC
 70
     2
  9
$DIMTDEC
 70
     2
  9
$DIMALTU
 70
     2
  9
$DIMALTTD
 70
     3
  9
$DIMTXSTY
  7
STANDARD
  9
$DIMAUNIT
 70
     0
  9
$LUNITS
 70
     2
  9
$LUPREC
 70
     4
  9
$SKETCHINC
 40
1.0
  9
$FILLETRAD
 40
10.0
  9
$AUNITS
 70
     0
  9
$AUPREC
 70
     0
  9
$MENU
  1
.
  9
$ELEVATION
 40
0.0
  9
$PELEVATION
 40
0.0
  9
$THICKNESS
 40
0.0
  9
$LIMCHECK
 70
     0
  9
$BLIPMODE
 70
     0
  9
$CHAMFERA
 40
10.0
  9
$CHAMFERB
 40
10.0
  9
$CHAMFERC
 40
20.0
  9
$CHAMFERD
 40
0.0
  9
$SKPOLY
 70
     0
  9
$TDCREATE
 40
2452549.690594189
  9
$TDUPDATE
 40
2452685.611939734
  9
$TDINDWG
 40
0.0563117477
  9
$TDUSRTIMER
 40
0.0563104745
  9
$USRTIMER
 70
     1
  9
$ANGBASE
 50
0.0
  9
$ANGDIR
 70
     0
  9
$PDMODE
 70
     0
  9
$PDSIZE
 40
0.0
  9
$PLINEWID
 40
0.0
  9
$COORDS
 70
     2
  9
$SPLFRAME
 70
     0
  9
$SPLINETYPE
 70
     6
  9
$SPLINESEGS
 70
     8
  9
$ATTDIA
 70
     0
  9
$ATTREQ
 70
     1
  9
$HANDLING
 70
-16383
  9
$HANDSEED
  5
1B3
  9
$SURFTAB1
 70
     6
  9
$SURFTAB2
 70
     6
  9
$SURFTYPE
 70
     6
  9
$SURFU
 70
     6
  9
$SURFV
 70
     6
  9
$UCSNAME
  2

  9
$UCSORG
 10
0.0
 20
0.0
 30
0.0
  9
$UCSXDIR
 10
1.0
 20
0.0
 30
0.0
  9
$UCSYDIR
 10
0.0
 20
1.0
 30
0.0
  9
$PUCSNAME
  2

  9
$PUCSORG
 10
0.0
 20
0.0
 30
0.0
  9
$PUCSXDIR
 10
1.0
 20
0.0
 30
0.0
  9
$PUCSYDIR
 10
0.0
 20
1.0
 30
0.0
  9
$USERI1
 70
     0
  9
$USERI2
 70
     0
  9
$USERI3
 70
     0
  9
$USERI4
 70
     0
  9
$USERI5
 70
     0
  9
$USERR1
 40
0.0
  9
$USERR2
 40
0.0
  9
$USERR3
 40
0.0
  9
$USERR4
 40
0.0
  9
$USERR5
 40
0.0
  9
$WORLDVIEW
 70
     1
  9
$SHADEDGE
 70
     3
  9
$SHADEDIF
 70
    70
  9
$TILEMODE
 70
     1
  9
$MAXACTVP
 70
    48
  9
$PINSBASE
 10
0.0
 20
0.0
 30
0.0
  9
$PLIMCHECK
 70
     0
  9
$PEXTMIN
 10
1.000000000000000E+20
 20
1.000000000000000E+20
 30
1.000000000000000E+20
  9
$PEXTMAX
 10
-1.000000000000000E+20
 20
-1.000000000000000E+20
 30
-1.000000000000000E+20
  9
$PLIMMIN
 10
0.0
 20
0.0
  9
$PLIMMAX
 10
420.0
 20
297.0
  9
$UNITMODE
 70
     0
  9
$VISRETAIN
 70
     1
  9
$PLINEGEN
 70
     0
  9
$PSLTSCALE
 70
     1
  9
$TREEDEPTH
 70
  3020
  9
$PICKSTYLE
 70
     1
  9
$CMLSTYLE
  2
STANDARD
  9
$CMLJUST
 70
     0
  9
$CMLSCALE
 40
20.0
  9
$PROXYGRAPHICS
 70
     1
  9
$MEASUREMENT
 70
     1
  0
ENDSEC
  0
SECTION
  2
CLASSES
  0
CLASS
  1
ACDBDICTIONARYWDFLT
  2
AcDbDictionaryWithDefault
  3
AutoCAD 2000
 90
        0
280
     0
281
     0
  0
CLASS
  1
ACDBPLACEHOLDER
  2
AcDbPlaceHolder
  3
AutoCAD 2000
 90
        0
280
     0
281
     0
  0
CLASS
  1
LAYOUT
  2
AcDbLayout
  3
AutoCAD 2000
 90
        0
280
     0
281
     0
  0
CLASS
  1
LONG_TRANSACTION
  2
AcDbLongTransaction
  3
AutoCAD 2000
 90
        0
280
     0
281
     0
  0
CLASS
  1
LWPOLYLINE
  2
AcDbPolyline
  3
AutoCAD 2000
 90
        0
280
     0
281
     1
  0
CLASS
  1
HATCH
  2
AcDbHatch
  3
AutoCAD 2000
 90
        0
280
     0
281
     1
  0
CLASS
  1
XRECORD
  2
AcDbXrecord
  3
AutoCAD 2000
 90
        0
280
     0
281
     0
  0
CLASS
  1
LONG_TRANSACTION
  2
AcDbLongTransaction
  3
AutoCAD 2000
 90
        0
280
     0
281
     0
  0
CLASS
  1
LWPOLYLINE
  2
AcDbPolyline
  3
AutoCAD 2000
 90
        0
280
     0
281
     1
  0
CLASS
  1
HATCH
  2
AcDbHatch
  3
AutoCAD 2000
 90
        0
280
     0
281
     1
  0
CLASS
  1
XRECORD
  2
AcDbXrecord
  3
AutoCAD 2000
 90
        0
280
     0
281
     0
  0
ENDSEC
  0
SECTION
  2
TABLES
  0
TABLE
  2
VPORT
  5
8
330
0
100
AcDbSymbolTable
 70
     2
  0
VPORT
  5
18E
330
8
100
AcDbSymbolTableRecord
100
AcDbViewportTableRecord
  2
*ACTIVE
 70
     0
 10
0.0
 20
0.0
 11
1.0
 21
1.0
 12
45.24478113363239
 22
20.1533947676794
 13
0.0
 23
0.0
 14
10.0
 24
10.0
 15
10.0
 25
10.0
 16
0.0
 26
0.0
 36
1.0
 17
0.0
 27
0.0
 37
0.0
 40
381.9423846291675
 41
1.685126582278481
 42
50.0
 43
0.0
 44
0.0
 50
0.0
 51
0.0
 71
     0
 72
   100
 73
     1
 74
     3
 75
     0
 76
     0
 77
     0
 78
     0
  0
ENDTAB
  0
TABLE
  2
LTYPE
  5
5
330
0
100
AcDbSymbolTable
 70
     2
  0
LTYPE
  5
14
330
5
100
AcDbSymbolTableRecord
100
AcDbLinetypeTableRecord
  2
BYBLOCK
 70
     0
  3

 72
    65
 73
     0
 40
0.0
  0
LTYPE
  5
15
330
5
100
AcDbSymbolTableRecord
100
AcDbLinetypeTableRecord
  2
BYLAYER
 70
     0
  3

 72
    65
 73
     0
 40
0.0
  0
LTYPE
  5
16
330
5
100
AcDbSymbolTableRecord
100
AcDbLinetypeTableRecord
  2
CONTINUOUS
 70
     0
  3
Solid line
 72
    65
 73
     0
 40
0.0
  0
LTYPE
  5
B9
330
5
100
AcDbSymbolTableRecord
100
AcDbLinetypeTableRecord
  2
ACAD_ISO08W100
 70
     0
  3
ISO long-dash short-dash ____ __ ____ __ ____ _
 72
    65
 73
     4
 40
36.0
 49
24.0
 74
     0
 49
-3.0
 74
     0
 49
6.0
 74
     0
 49
-3.0
 74
     0
  0
ENDTAB
  0
TABLE
  2
LAYER
  5
2
330
0
100
AcDbSymbolTable
 70
     2
  0
LAYER
  5
10
330
2
100
AcDbSymbolTableRecord
100
AcDbLayerTableRecord
  2
0
 70
     0
 62
     7
  6
CONTINUOUS
  0
LAYER
  5
51
330
2
100
AcDbSymbolTableRecord
100
AcDbLayerTableRecord
  2
CONSTRUCT
 70
     0
 62
    21
  6
CONTINUOUS
  0
ENDTAB
  0
TABLE
  2
STYLE
  5
3
330
0
100
AcDbSymbolTable
 70
     1
  0
STYLE
  5
11
330
3
100
AcDbSymbolTableRecord
100
AcDbTextStyleTableRecord
  2
STANDARD
 70
     0
 40
0.0
 41
1.0
 50
0.0
 71
     0
 42
2.5
  3
txt
  4

  0
ENDTAB
  0
TABLE
  2
VIEW
  5
6
330
0
100
AcDbSymbolTable
 70
     0
  0
ENDTAB
  0
TABLE
  2
UCS
  5
7
330
0
100
AcDbSymbolTable
 70
     0
  0
ENDTAB
  0
TABLE
  2
APPID
  5
9
330
0
100
AcDbSymbolTable
 70
     1
  0
APPID
  5
12
330
9
100
AcDbSymbolTableRecord
100
AcDbRegAppTableRecord
  2
ACAD
 70
     0
  0
ENDTAB
  0
TABLE
  2
DIMSTYLE
  5
A
330
0
100
AcDbSymbolTable
 70
     2
  0
DIMSTYLE
105
27
330
A
100
AcDbSymbolTableRecord
100
AcDbDimStyleTableRecord
  2
ISO-25
 70
     0
  3

  4

  5

  6

  7

 40
1.0
 41
2.5
 42
0.625
 43
3.75
 44
1.25
 45
0.0
 46
0.0
 47
0.0
 48
0.0
140
2.5
141
2.5
142
0.0
143
0.03937007874016
144
1.0
145
0.0
146
1.0
147
0.625
 71
     0
 72
     0
 73
     0
 74
     0
 75
     0
 76
     0
 77
     1
 78
     8
170
     0
171
     3
172
     1
173
     0
174
     0
175
     0
176
     0
177
     0
178
     0
270
     2
271
     2
272
     2
273
     2
274
     3
340
11
275
     0
280
     0
281
     0
282
     0
283
     0
284
     8
285
     0
286
     0
287
     3
288
     0
  0
DIMSTYLE
105
BA
330
A
100
AcDbSymbolTableRecord
100
AcDbDimStyleTableRecord
  2
STANDARD
 70
     0
  3

  4

  5

  6

  7

 40
1.0
 41
0.18
 42
0.0625
 43
0.38
 44
0.18
 45
0.0
 46
0.0
 47
0.0
 48
0.0
140
0.18
141
0.09
142
0.0
143
25.4
144
1.0
145
0.0
146
1.0
147
0.09
 71
     0
 72
     0
 73
     1
 74
     1
 75
     0
 76
     0
 77
     0
 78
     0
170
     0
171
     2
172
     0
173
     0
174
     0
175
     0
176
     0
177
     0
178
     0
270
     2
271
     4
272
     4
273
     2
274
     2
340
11
275
     0
280
     0
281
     0
282
     0
283
     1
284
     0
285
     0
286
     0
287
     3
288
     0
  0
ENDTAB
  0
TABLE
  2
BLOCK_RECORD
  5
1
330
0
100
AcDbSymbolTable
 70
     1
  0
BLOCK_RECORD
  5
1F
102
{ACAD_XDICTIONARY
360
14D
102
}
330
1
100
AcDbSymbolTableRecord
100
AcDbBlockTableRecord
  2
*MODEL_SPACE
  0
BLOCK_RECORD
  5
1B
102
{ACAD_XDICTIONARY
360
14F
102
}
330
1
100
AcDbSymbolTableRecord
100
AcDbBlockTableRecord
  2
*PAPER_SPACE
  0
ENDTAB
  0
ENDSEC
  0
SECTION
  2
BLOCKS
  0
BLOCK
  5
20
330
1F
100
AcDbEntity
  8
0
100
AcDbBlockBegin
  2
*MODEL_SPACE
 70
     0
 10
0.0
 20
0.0
 30
0.0
  3
*MODEL_SPACE
  1

  0
ENDBLK
  5
21
330
1F
100
AcDbEntity
  8
0
100
AcDbBlockEnd
  0
BLOCK
  5
1C
330
1B
100
AcDbEntity
 67
     1
  8
0
100
AcDbBlockBegin
  2
*PAPER_SPACE
 70
     0
 10
0.0
 20
0.0
 30
0.0
  3
*PAPER_SPACE
  1

  0
ENDBLK
  5
1D
330
1B
100
AcDbEntity
 67
     1
  8
0
100
AcDbBlockEnd
  0
ENDSEC
  0
SECTION
  2
ENTITIES
  0
ARC
  5
2D
330
1F
100
AcDbEntity
  8
0
100
AcDbCircle
 10
0.0
 20
0.0
 30
0.0
 40
152.5
100
AcDbArc
 50
184.861405395798
 51
215.0135743796278
  0
ARC
  5
2E
330
1F
100
AcDbEntity
  8
0
100
AcDbCircle
 10
0.0
 20
0.0
 30
0.0
 40
51.5
100
AcDbArc
 50
12.7818122041226
 51
167.2181877958773
  0
CIRCLE
  5
2F
330
1F
100
AcDbEntity
  8
0
100
AcDbCircle
 10
0.0
 20
0.0
 30
0.0
 40
46.5
  0
CIRCLE
  5
30
330
1F
100
AcDbEntity
  8
0
100
AcDbCircle
 10
0.0
 20
0.0
 30
0.0
 40
37.5
  0
CIRCLE
  5
31
330
1F
100
AcDbEntity
  8
0
100
AcDbCircle
 10
0.0
 20
0.0
 30
0.0
 40
18.5
  0
CIRCLE
  5
32
330
1F
100
AcDbEntity
  8
0
100
AcDbCircle
 10
0.0
 20
0.0
 30
0.0
 40
10.0
  0
CIRCLE
  5
33
330
1F
100
AcDbEntity
  8
0
100
AcDbCircle
 10
29.75
 20
0.0
 30
0.0
 40
5.0
  0
LINE
  5
34
330
1F
100
AcDbEntity
  8
0
100
AcDbLine
 10
-172.9
 20
0.0
 30
0.0
 11
-46.5
 21
0.0
 31
0.0
  0
LINE
  5
35
330
1F
100
AcDbEntity
  8
0
100
AcDbLine
 10
-146.9693845669906
 20
7.5
 30
0.0
 11
-55.09990925582364
 21
7.5
 31
0.0
  0
LINE
  5
36
330
1F
100
AcDbEntity
  8
0
100
AcDbLine
 10
-146.9693845669906
 20
-7.5
 30
0.0
 11
-55.09990925582364
 21
-7.5
 31
0.0
  0
LINE
  5
37
330
1F
100
AcDbEntity
  8
0
100
AcDbLine
 10
55.09990925582364
 20
7.5
 30
0.0
 11
146.9693845669906
 21
7.5
 31
0.0
  0
LINE
  5
38
330
1F
100
AcDbEntity
  8
0
100
AcDbLine
 10
55.09990925582364
 20
-7.5
 30
0.0
 11
146.9693845669906
 21
-7.5
 31
0.0
  0
LINE
  5
39
330
1F
100
AcDbEntity
  8
0
100
AcDbLine
 10
46.5
 20
0.0
 30
0.0
 11
172.9
 21
0.0
 31
0.0
  0
ARC
  5
3A
330
1F
100
AcDbEntity
  8
0
100
AcDbCircle
 10
0.0
 20
0.0
 30
0.0
 40
51.5
100
AcDbArc
 50
192.7818122041225
 51
347.2181877958774
  0
ARC
  5
3B
330
1F
100
AcDbEntity
  8
0
100
AcDbCircle
 10
0.0
 20
0.0
 30
0.0
 40
152.5
100
AcDbArc
 50
4.861405395798029
 51
175.1385946042019
  0
CIRCLE
  5
3D
330
1F
100
AcDbEntity
  8
0
100
AcDbCircle
 10
21.03642674029979
 20
21.03642674029978
 30
0.0
 40
5.0
  0
CIRCLE
  5
3E
330
1F
100
AcDbEntity
  8
0
100
AcDbCircle
 10
0.0000000000000084
 20
29.75
 30
0.0
 40
5.0
  0
CIRCLE
  5
3F
330
1F
100
AcDbEntity
  8
0
100
AcDbCircle
 10
-21.03642674029977
 20
21.0364267402998
 30
0.0
 40
5.0
  0
CIRCLE
  5
40
330
1F
100
AcDbEntity
  8
0
100
AcDbCircle
 10
-29.75
 20
0.0000000000000169
 30
0.0
 40
5.0
  0
CIRCLE
  5
41
330
1F
100
AcDbEntity
  8
0
100
AcDbCircle
 10
-21.0364267402998
 20
-21.03642674029977
 30
0.0
 40
5.0
  0
CIRCLE
  5
42
330
1F
100
AcDbEntity
  8
0
100
AcDbCircle
 10
-0.0000000000000319
 20
-29.75
 30
0.0
 40
5.0
  0
CIRCLE
  5
43
330
1F
100
AcDbEntity
  8
0
100
AcDbCircle
 10
21.03642674029976
 20
-21.03642674029981
 30
0.0
 40
5.0
  0
ARC
  5
44
330
1F
100
AcDbEntity
  8
0
100
AcDbCircle
 10
-146.9693845669906
 20
-12.5
 30
0.0
 40
5.0
100
AcDbArc
 50
90.0
 51
184.8614053957979
  0
ARC
  5
45
330
1F
100
AcDbEntity
  8
0
100
AcDbCircle
 10
-146.9693845669906
 20
12.5
 30
0.0
 40
5.0
100
AcDbArc
 50
175.1385946042016
 51
270.0
  0
ARC
  5
46
330
1F
100
AcDbEntity
  8
0
100
AcDbCircle
 10
-55.09990925582364
 20
12.5
 30
0.0
 40
5.0
100
AcDbArc
 50
270.0
 51
347.2181877958776
  0
ARC
  5
47
330
1F
100
AcDbEntity
  8
0
100
AcDbCircle
 10
-55.09990925582364
 20
-12.5
 30
0.0
 40
5.0
100
AcDbArc
 50
12.78181220412259
 51
90.0
  0
ARC
  5
48
330
1F
100
AcDbEntity
  8
0
100
AcDbCircle
 10
55.09990925582364
 20
-12.5
 30
0.0
 40
5.0
100
AcDbArc
 50
90.0
 51
167.2181877958776
  0
ARC
  5
49
330
1F
100
AcDbEntity
  8
0
100
AcDbCircle
 10
146.9693845669906
 20
-12.5
 30
0.0
 40
5.0
100
AcDbArc
 50
355.1385946042014
 51
90.0
  0
ARC
  5
4A
330
1F
100
AcDbEntity
  8
0
100
AcDbCircle
 10
55.09990925582364
 20
12.5
 30
0.0
 40
5.0
100
AcDbArc
 50
192.7818122041225
 51
270.0
  0
ARC
  5
4B
330
1F
100
AcDbEntity
  8
0
100
AcDbCircle
 10
146.9693845669906
 20
12.5
 30
0.0
 40
5.0
100
AcDbArc
 50
270.0
 51
4.861405395798044
  0
ARC
  5
53
330
1F
100
AcDbEntity
  8
CONSTRUCT
 62
     1
100
AcDbCircle
 10
0.0
 20
0.0
 30
0.0
 40
177.5
100
AcDbArc
 50
153.7066479314738
 51
159.8404495339957
  0
LINE
  5
58
330
1F
100
AcDbEntity
  8
CONSTRUCT
 62
     1
100
AcDbLine
 10
-172.6142237819866
 20
70.0
 30
0.0
 11
-153.6142237819865
 21
70.0
 31
0.0
  0
CIRCLE
  5
59
330
1F
100
AcDbEntity
  8
0
100
AcDbCircle
 10
-163.1142237819865
 20
70.0
 30
0.0
 40
9.5
  0
LINE
  5
5B
330
1F
100
AcDbEntity
  8
0
100
AcDbLine
 10
-137.0
 20
108.827432203466
 30
0.0
 11
-136.9999999999999
 21
143.4999999999999
 31
0.0
  0
LINE
  5
5C
330
1F
100
AcDbEntity
  8
0
100
AcDbLine
 10
-126.9999999999999
 20
153.4999999999999
 30
0.0
 11
-81.97658202194089
 21
153.5
 31
0.0
  0
ARC
  5
60
330
1F
100
AcDbEntity
  8
CONSTRUCT
 62
     1
100
AcDbCircle
 10
0.0
 20
0.0
 30
0.0
 40
167.6999999999999
100
AcDbArc
 50
31.30920634619363
 51
35.88770674490589
  0
LINE
  5
61
330
1F
100
AcDbEntity
  8
CONSTRUCT
 62
     1
100
AcDbLine
 10
132.9833919977604
 20
92.79999999999999
 30
0.0
 11
146.3833919977603
 21
92.79999999999999
 31
0.0
  0
CIRCLE
  5
62
330
1F
100
AcDbEntity
  8
0
100
AcDbCircle
 10
139.6833919977604
 20
92.79999999999999
 30
0.0
 40
6.7
  0
ARC
  5
63
330
1F
100
AcDbEntity
  8
CONSTRUCT
 62
     1
100
AcDbCircle
 10
0.0
 20
0.0
 30
0.0
 40
166.4
100
AcDbArc
 50
74.67718157518774
 51
79.29145632349184
  0
ARC
  5
69
330
1F
100
AcDbEntity
  8
CONSTRUCT
 62
     1
100
AcDbCircle
 10
139.6833919977604
 20
92.79999999999999
 30
0.0
 40
123.5
100
AcDbArc
 50
142.7430612180974
 51
148.9605318996237
  0
ARC
  5
6A
330
1F
100
AcDbEntity
  8
CONSTRUCT
 62
     1
100
AcDbCircle
 10
37.47622816310121
 20
162.1249281346554
 30
0.0
 40
53.0
100
AcDbArc
 50
168.9000812396632
 51
183.395847165917
  0
CIRCLE
  5
6B
330
1F
100
AcDbEntity
  8
0
100
AcDbCircle
 10
37.47622816310121
 20
162.1249281346554
 30
0.0
 40
6.7
  0
CIRCLE
  5
6C
330
1F
100
AcDbEntity
  8
0
100
AcDbCircle
 10
-15.40403779354178
 20
165.6854719631601
 30
0.0
 40
6.7
  0
ARC
  5
6D
330
1F
100
AcDbEntity
  8
CONSTRUCT
 62
     1
100
AcDbCircle
 10
0.0
 20
0.0
 30
0.0
 40
166.4
100
AcDbArc
 50
93.00447208208849
 51
97.61874683039259
  0
LINE
  5
6E
330
1F
100
AcDbEntity
  8
0
100
AcDbLine
 10
-152.7553836103866
 20
-96.3
 30
0.0
 11
-45.64057953181574
 21
-96.29999999999999
 31
0.0
  0
LINE
  5
6F
330
1F
100
AcDbEntity
  8
0
100
AcDbLine
 10
-124.8999599679679
 20
-87.5
 30
0.0
 11
-45.64057953181577
 21
-87.5
 31
0.0
  0
ARC
  5
71
330
1F
100
AcDbEntity
  8
0
100
AcDbCircle
 10
0.0
 20
0.0
 30
0.0
 40
152.5
100
AcDbArc
 50
324.986425620372
 51
355.1385946042019
  0
ARC
  5
72
330
1F
100
AcDbEntity
  8
0
100
AcDbCircle
 10
0.0
 20
0.0
 30
0.0
 40
172.9
100
AcDbArc
 50
330.9923554257155
 51
358.3431015456274
  0
ARC
  5
79
330
1F
100
AcDbEntity
  8
0
100
AcDbCircle
 10
0.0
 20
-168.3725
 30
0.0
 40
84.5725
100
AcDbArc
 50
59.36694859014051
 51
120.6330514098594
  0
ARC
  5
7A
330
1F
100
AcDbEntity
  8
0
100
AcDbCircle
 10
0.0
 20
-159.5724999999999
 30
0.0
 40
84.5725
100
AcDbArc
 50
59.36694859014047
 51
120.6330514098595
  0
LINE
  5
7B
330
1F
100
AcDbEntity
  8
0
100
AcDbLine
 10
45.6405795318158
 20
-87.50000000000001
 30
0.0
 11
124.8999599679679
 21
-87.5
 31
0.0
  0
LINE
  5
7C
330
1F
100
AcDbEntity
  8
0
100
AcDbLine
 10
45.64057953181576
 20
-96.29999999999999
 30
0.0
 11
143.8255731489857
 21
-96.30000000000002
 31
0.0
  0
ARC
  5
7D
330
1F
100
AcDbEntity
  8
0
100
AcDbCircle
 10
45.6405795318158
 20
-82.50000000000001
 30
0.0
 40
5.0
100
AcDbArc
 50
239.3669485901404
 51
270.0
  0
ARC
  5
7E
330
1F
100
AcDbEntity
  8
0
100
AcDbCircle
 10
45.64057953181576
 20
-91.29999999999999
 30
0.0
 40
5.0
100
AcDbArc
 50
239.3669485901406
 51
270.0
  0
ARC
  5
7F
330
1F
100
AcDbEntity
  8
0
100
AcDbCircle
 10
-45.64057953181574
 20
-91.29999999999997
 30
0.0
 40
5.0
100
AcDbArc
 50
270.0
 51
300.6330514098597
  0
ARC
  5
80
330
1F
100
AcDbEntity
  8
0
100
AcDbCircle
 10
-45.64057953181577
 20
-82.5
 30
0.0
 40
5.0
100
AcDbArc
 50
270.0
 51
300.6330514098594
  0
LINE
  5
82
330
1F
100
AcDbEntity
  8
CONSTRUCT
 62
     1
100
AcDbLine
 10
-171.9387598354789
 20
-43.99999999999999
 30
0.0
 11
-158.3387598354789
 21
-43.99999999999999
 31
0.0
  0
LINE
  5
83
330
1F
100
AcDbEntity
  8
CONSTRUCT
 62
     1
100
AcDbLine
 10
131.9853728184459
 20
-85.49999999999998
 30
0.0
 11
143.6853728184459
 21
-85.49999999999998
 31
0.0
  0
ARC
  5
84
330
1F
100
AcDbEntity
  8
CONSTRUCT
 62
     1
100
AcDbCircle
 10
0.0
 20
0.0
 30
0.0
 40
162.1999999999999
100
AcDbArc
 50
326.1218821351618
 51
330.2550323147257
  0
CIRCLE
  5
85
330
1F
100
AcDbEntity
  8
0
100
AcDbCircle
 10
137.8353728184459
 20
-85.49999999999998
 30
0.0
 40
5.849999999999999
  0
ARC
  5
86
330
1F
100
AcDbEntity
  8
CONSTRUCT
 62
     1
100
AcDbCircle
 10
0.0
 20
0.0
 30
0.0
 40
170.9
100
AcDbArc
 50
192.6395183160581
 51
197.1993428509124
  0
CIRCLE
  5
87
330
1F
100
AcDbEntity
  8
0
100
AcDbCircle
 10
-165.1387598354789
 20
-43.99999999999999
 30
0.0
 40
6.799999999999999
  0
ARC
  5
88
330
1F
100
AcDbEntity
  8
CONSTRUCT
 62
     1
100
AcDbCircle
 10
-165.1387598354789
 20
-43.99999999999999
 30
0.0
 40
41.1
100
AcDbArc
 50
279.0948034249447
 51
298.3554667661455
  0
ARC
  5
89
330
1F
100
AcDbEntity
  8
CONSTRUCT
 62
     1
100
AcDbCircle
 10
0.0
 20
0.0
 30
0.0
 40
173.0999999999999
100
AcDbArc
 50
206.3397141273818
 51
210.9077910422782
  0
CIRCLE
  5
8A
330
1F
100
AcDbEntity
  8
0
100
AcDbCircle
 10
-151.9444888321952
 20
-82.92455796398856
 30
0.0
 40
6.9
  0
ARC
  5
8B
330
1F
100
AcDbEntity
  8
0
100
AcDbCircle
 10
-151.9444888321952
 20
-82.92455796398856
 30
0.0
 40
13.4
100
AcDbArc
 50
139.9124628633809
 51
273.4693471585943
  0
ARC
  5
8C
330
1F
100
AcDbEntity
  8
0
100
AcDbCircle
 10
-165.1387598354789
 20
-43.99999999999999
 30
0.0
 40
13.3
100
AcDbArc
 50
132.6254099144327
 51
257.2134512525379
  0
ARC
  5
8D
330
1F
100
AcDbEntity
  8
0
100
AcDbCircle
 10
-163.1142237819865
 20
70.0
 30
0.0
 40
16.0
100
AcDbArc
 50
74.68324295154933
 51
238.8638545139203
  0
ARC
  5
8F
330
1F
100
AcDbEntity
  8
0
100
AcDbCircle
 10
-15.40403779354178
 20
165.6854719631601
 30
0.0
 40
13.2
100
AcDbArc
 50
47.90231230567804
 51
142.7209066068031
  0
ARC
  5
90
330
1F
100
AcDbEntity
  8
0
100
AcDbCircle
 10
37.47622816310121
 20
162.1249281346554
 30
0.0
 40
13.2
100
AcDbArc
 50
29.57502179877725
 51
124.3936160999023
  0
ARC
  5
91
330
1F
100
AcDbEntity
  8
0
100
AcDbCircle
 10
139.6833919977604
 20
92.79999999999999
 30
0.0
 40
13.2
100
AcDbArc
 50
341.6007522062466
 51
85.59616088485295
  0
ARC
  5
92
330
1F
100
AcDbEntity
  8
0
100
AcDbCircle
 10
137.8353728184459
 20
-85.49999999999998
 30
0.0
 40
12.35
100
AcDbArc
 50
299.014861458987
 51
351.7863618932024
  0
ARC
  5
93
330
1F
100
AcDbEntity
  8
CONSTRUCT
 62
     1
100
AcDbCircle
 10
0.0
 20
0.0
 30
0.0
 40
166.1
100
AcDbArc
 50
1.592172135419575
 51
8.147068249509027
  0
LINE
  5
94
330
1F
100
AcDbEntity
  8
CONSTRUCT
 62
     1
100
AcDbLine
 10
156.0004531715849
 20
14.09999999999999
 30
0.0
 11
172.9
 21
14.09999999999999
 31
0.0
  0
CIRCLE
  5
95
330
1F
100
AcDbEntity
  8
0
100
AcDbCircle
 10
165.5004531715849
 20
14.09999999999999
 30
0.0
 40
9.5
  0
ARC
  5
96
330
1F
100
AcDbEntity
  8
0
100
AcDbCircle
 10
165.5004531715849
 20
14.09999999999999
 30
0.0
 40
16.0
100
AcDbArc
 50
311.7799935592431
 51
57.9592468256855
  0
ARC
  5
98
330
1F
100
AcDbEntity
  8
0
100
AcDbCircle
 10
0.0
 20
0.0
 30
0.0
 40
172.9
100
AcDbArc
 50
201.3953661362449
 51
201.7773229204968
  0
ARC
  5
9A
330
1F
100
AcDbEntity
  8
0
100
AcDbCircle
 10
0.0
 20
0.0
 30
0.0
 40
172.9
100
AcDbArc
 50
164.8677917481224
 51
188.4434950307257
  0
ARC
  5
9B
330
1F
100
AcDbEntity
  8
0
100
AcDbCircle
 10
0.0
 20
0.0
 30
0.0
 40
172.9
100
AcDbArc
 50
100.6699467894127
 51
116.6285373952548
  0
ARC
  5
9C
330
1F
100
AcDbEntity
  8
0
100
AcDbCircle
 10
0.0
 20
0.0
 30
0.0
 40
172.9
100
AcDbArc
 50
82.34265628251202
 51
89.95327212306831
  0
ARC
  5
9D
330
1F
100
AcDbEntity
  8
0
100
AcDbCircle
 10
0.0
 20
0.0
 30
0.0
 40
172.9
100
AcDbArc
 50
39.33488072791809
 51
71.62598161616756
  0
ARC
  5
9E
330
1F
100
AcDbEntity
  8
0
100
AcDbCircle
 10
0.0
 20
0.0
 30
0.0
 40
172.9
100
AcDbArc
 50
11.39613883930115
 51
27.86203236318144
  0
ARC
  5
9F
330
1F
100
AcDbEntity
  8
0
100
AcDbCircle
 10
-169.8469277287414
 20
-67.85595877377087
 30
0.0
 40
10.0
100
AcDbArc
 50
319.912462863381
 51
21.77732292049682
  0
ARC
  5
A0
330
1F
100
AcDbEntity
  8
0
100
AcDbCircle
 10
-170.29550551412
 20
-66.72219122368739
 30
0.0
 40
10.0
100
AcDbArc
 50
21.39536613624485
 51
77.21345125253781
  0
ARC
  5
A1
330
1F
100
AcDbEntity
  8
0
100
AcDbCircle
 10
-180.9175746453139
 20
-26.85593387795842
 30
0.0
 40
10.0
100
AcDbArc
 50
312.6254099144327
 51
8.443495030726108
  0
ARC
  5
A3
330
1F
100
AcDbEntity
  8
0
100
AcDbCircle
 10
159.9561121712629
 20
-88.69302215537786
 30
0.0
 40
10.0
100
AcDbArc
 50
150.9923554257154
 51
171.7863618932025
  0
ARC
  5
A5
330
1F
100
AcDbEntity
  8
0
100
AcDbCircle
 10
182.8235284373556
 20
-5.288426014930738
 30
0.0
 40
10.0
100
AcDbArc
 50
131.779993559243
 51
178.3431015456279
  0
ARC
  5
A6
330
1F
100
AcDbEntity
  8
0
100
AcDbCircle
 10
179.2940336814471
 20
36.13944501837447
 30
0.0
 40
10.0
100
AcDbArc
 50
191.3961388393011
 51
237.9592468256854
  0
ARC
  5
A7
330
1F
100
AcDbEntity
  8
0
100
AcDbCircle
 10
161.6974116065997
 20
85.4772313527167
 30
0.0
 40
10.0
100
AcDbArc
 50
161.6007522062466
 51
207.8620323631813
  0
ARC
  5
A8
330
1F
100
AcDbEntity
  8
0
100
AcDbCircle
 10
141.4648233853809
 20
115.9315045384255
 30
0.0
 40
10.0
100
AcDbArc
 50
219.3348807279181
 51
265.5961608848528
  0
ARC
  5
A9
330
1F
100
AcDbEntity
  8
0
100
AcDbCircle
 10
57.65350437957809
 20
173.5755842068635
 30
0.0
 40
10.0
100
AcDbArc
 50
209.5750217987772
 51
251.6259816161675
  0
ARC
  5
AA
330
1F
100
AcDbEntity
  8
0
100
AcDbCircle
 10
24.3711266386358
 20
181.2690215849459
 30
0.0
 40
10.0
100
AcDbArc
 50
262.342656282512
 51
304.3936160999023
  0
ARC
  5
AB
330
1F
100
AcDbEntity
  8
0
100
AcDbCircle
 10
0.1491650487349947
 20
182.8999391738232
 30
0.0
 40
10.0
100
AcDbArc
 50
227.9023123056779
 51
269.9532721230683
  0
ARC
  5
AC
330
1F
100
AcDbEntity
  8
0
100
AcDbCircle
 10
-33.86415127165294
 20
179.7376678903189
 30
0.0
 40
10.0
100
AcDbArc
 50
280.6699467894132
 51
322.7209066068031
  0
ARC
  5
AE
330
1F
100
AcDbEntity
  8
0
100
AcDbCircle
 10
-176.5581324098727
 20
47.74553256523428
 30
0.0
 40
10.0
100
AcDbArc
 50
344.8677917481225
 51
58.86385451392027
  0
ARC
  5
B0
330
1F
100
AcDbEntity
  8
0
100
AcDbCircle
 10
-81.97658202194089
 20
163.5
 30
0.0
 40
10.0
100
AcDbArc
 50
270.0000000000001
 51
296.6285373952548
  0
ARC
  5
B1
330
1F
100
AcDbEntity
  8
0
100
AcDbCircle
 10
-126.9999999999999
 20
143.4999999999999
 30
0.0
 40
10.0
100
AcDbArc
 50
90.00000000000005
 51
179.9999999999999
  0
CIRCLE
  5
DC
330
1F
100
AcDbEntity
  8
0
100
AcDbCircle
 10
0.0
 20
0.0
 30
0.0
 40
15.0
  0
ARC
  5
103
330
1F
100
AcDbEntity
  8
0
100
AcDbCircle
 10
0.0
 20
0.0
 30
0.0
 40
172.9
100
AcDbArc
 50
143.4866147949207
 51
148.679305717347
  0
ARC
  5
104
330
1F
100
AcDbEntity
  8
0
100
AcDbCircle
 10
-147.0
 20
108.827432203466
 30
0.0
 40
10.0
100
AcDbArc
 50
323.486614794921
 51
359.9999999999998
  0
ARC
  5
105
330
1F
100
AcDbEntity
  8
0
100
AcDbCircle
 10
-156.2461901782283
 20
95.0764852883662
 30
0.0
 40
10.0
100
AcDbArc
 50
254.6832429515492
 51
328.6793057173474
  0
ENDSEC
  0
SECTION
  2
OBJECTS
  0
DICTIONARY
  5
C
330
0
100
AcDbDictionary
  3
ACAD_GROUP
350
D
  3
ACAD_LAYOUT
350
1A
  3
ACAD_MLINESTYLE
350
17
  3
ACAD_PLOTSETTINGS
350
19
  3
ACAD_PLOTSTYLENAME
350
E
  3
ACDBHEADERROUNDTRIPXREC
350
18F
  0
DICTIONARY
  5
14D
330
1F
100
AcDbDictionary
280
     1
  3
ACAD_LAYOUTSELFREF
360
1B1
  0
DICTIONARY
  5
14F
330
1B
100
AcDbDictionary
280
     1
  3
ACAD_LAYOUTSELFREF
360
1B0
  0
DICTIONARY
  5
D
102
{ACAD_REACTORS
330
C
102
}
330
C
100
AcDbDictionary
  0
DICTIONARY
  5
1A
102
{ACAD_REACTORS
330
C
102
}
330
C
100
AcDbDictionary
  0
DICTIONARY
  5
17
102
{ACAD_REACTORS
330
C
102
}
330
C
100
AcDbDictionary
  3
STANDARD
350
18
  0
DICTIONARY
  5
19
102
{ACAD_REACTORS
330
C
102
}
330
C
100
AcDbDictionary
  0
ACDBDICTIONARYWDFLT
  5
E
102
{ACAD_REACTORS
330
C
102
}
330
C
100
AcDbDictionary
281
     1
  3
Normal
350
F
100
AcDbDictionaryWithDefault
340
F
  0
DICTIONARY
  5
18F
102
{ACAD_REACTORS
330
C
102
}
330
C
100
AcDbDictionary
  3
CEPSNTYPE
350
199
  3
DIMSTYLEDATA
350
19D
  3
FINGERPRINTGUID
350
19A
  3
HYPERLINKBASE
350
192
  3
INSUNITS
350
198
  3
LAYOUTDICT
350
194
  3
LWETCUNION
350
197
  3
PLOTSETDICT
350
195
  3
PLOTSTYLNAMDICT
350
196
  3
PSVPSCALE
350
19C
  3
PUCSBASE
350
1A0
  3
PUCSORGBACK
350
1A6
  3
PUCSORGBOTTOM
350
1A2
  3
PUCSORGFRONT
350
1A5
  3
PUCSORGLEFT
350
1A3
  3
PUCSORGRIGHT
350
1A4
  3
PUCSORGTOP
350
1A1
  3
PUCSORTHOREF
350
19E
  3
PUCSORTHOVIEW
350
19F
  3
STYLESHEET
350
193
  3
TSTACKALIGN
350
190
  3
TSTACKSIZE
350
191
  3
UCSBASE
350
1A9
  3
UCSORGBACK
350
1AF
  3
UCSORGBOTTOM
350
1AB
  3
UCSORGFRONT
350
1AE
  3
UCSORGLEFT
350
1AC
  3
UCSORGRIGHT
350
1AD
  3
UCSORGTOP
350
1AA
  3
UCSORTHOREF
350
1A7
  3
UCSORTHOVIEW
350
1A8
  3
VERSIONGUID
350
19B
  0
XRECORD
  5
1B1
102
{ACAD_REACTORS
330
14D
102
}
330
14D
100
AcDbXrecord
340
1F
  0
XRECORD
  5
1B0
102
{ACAD_REACTORS
330
14F
102
}
330
14F
100
AcDbXrecord
340
1B
  0
MLINESTYLE
  5
18
102
{ACAD_REACTORS
330
17
102
}
330
17
100
AcDbMlineStyle
  2
STANDARD
 70
     0
  3

 62
   256
 51
90.0
 52
90.0
 71
     2
 49
0.5
 62
   256
  6
BYLAYER
 49
-0.5
 62
   256
  6
BYLAYER
  0
ACDBPLACEHOLDER
  5
F
102
{ACAD_REACTORS
330
E
102
}
330
E
100
AcDbPlaceHolder
280
     0
  0
XRECORD
  5
199
102
{ACAD_REACTORS
330
18F
102
}
330
18F
100
AcDbXrecord
 90
        0
  0
XRECORD
  5
19D
102
{ACAD_REACTORS
330
18F
102
}
330
18F
100
AcDbXrecord
1000
DSTYLE
1002
{
1070
   278
 70
    44
1002
}
  0
XRECORD
  5
19A
102
{ACAD_REACTORS
330
18F
102
}
330
18F
100
AcDbXrecord
  1
{8E9DC45E-7724-4F11-8A0B-71E8616ECA62}
  0
XRECORD
  5
192
102
{ACAD_REACTORS
330
18F
102
}
330
18F
100
AcDbXrecord
  1

  0
XRECORD
  5
198
102
{ACAD_REACTORS
330
18F
102
}
330
18F
100
AcDbXrecord
 90
        4
  0
XRECORD
  5
194
102
{ACAD_REACTORS
330
18F
102
}
330
18F
100
AcDbXrecord
340
1A
  0
XRECORD
  5
197
102
{ACAD_REACTORS
330
18F
102
}
330
18F
100
AcDbXrecord
 90
    10781
  0
XRECORD
  5
195
102
{ACAD_REACTORS
330
18F
102
}
330
18F
100
AcDbXrecord
340
19
  0
XRECORD
  5
196
102
{ACAD_REACTORS
330
18F
102
}
330
18F
100
AcDbXrecord
340
E
  0
XRECORD
  5
19C
102
{ACAD_REACTORS
330
18F
102
}
330
18F
100
AcDbXrecord
 40
0.0
  0
XRECORD
  5
1A0
102
{ACAD_REACTORS
330
18F
102
}
330
18F
100
AcDbXrecord
340
0
  0
XRECORD
  5
1A6
102
{ACAD_REACTORS
330
18F
102
}
330
18F
100
AcDbXrecord
 10
0.0
 20
0.0
 30
0.0
  0
XRECORD
  5
1A2
102
{ACAD_REACTORS
330
18F
102
}
330
18F
100
AcDbXrecord
 10
0.0
 20
0.0
 30
0.0
  0
XRECORD
  5
1A5
102
{ACAD_REACTORS
330
18F
102
}
330
18F
100
AcDbXrecord
 10
0.0
 20
0.0
 30
0.0
  0
XRECORD
  5
1A3
102
{ACAD_REACTORS
330
18F
102
}
330
18F
100
AcDbXrecord
 10
0.0
 20
0.0
 30
0.0
  0
XRECORD
  5
1A4
102
{ACAD_REACTORS
330
18F
102
}
330
18F
100
AcDbXrecord
 10
0.0
 20
0.0
 30
0.0
  0
XRECORD
  5
1A1
102
{ACAD_REACTORS
330
18F
102
}
330
18F
100
AcDbXrecord
 10
0.0
 20
0.0
 30
0.0
  0
XRECORD
  5
19E
102
{ACAD_REACTORS
330
18F
102
}
330
18F
100
AcDbXrecord
340
0
  0
XRECORD
  5
19F
102
{ACAD_REACTORS
330
18F
102
}
330
18F
100
AcDbXrecord
 70
     0
  0
XRECORD
  5
193
102
{ACAD_REACTORS
330
18F
102
}
330
18F
100
AcDbXrecord
  1

  0
XRECORD
  5
190
102
{ACAD_REACTORS
330
18F
102
}
330
18F
100
AcDbXrecord
 90
        1
  0
XRECORD
  5
191
102
{ACAD_REACTORS
330
18F
102
}
330
18F
100
AcDbXrecord
 90
       70
  0
XRECORD
  5
1A9
102
{ACAD_REACTORS
330
18F
102
}
330
18F
100
AcDbXrecord
340
0
  0
XRECORD
  5
1AF
102
{ACAD_REACTORS
330
18F
102
}
330
18F
100
AcDbXrecord
 10
0.0
 20
0.0
 30
0.0
  0
XRECORD
  5
1AB
102
{ACAD_REACTORS
330
18F
102
}
330
18F
100
AcDbXrecord
 10
0.0
 20
0.0
 30
0.0
  0
XRECORD
  5
1AE
102
{ACAD_REACTORS
330
18F
102
}
330
18F
100
AcDbXrecord
 10
0.0
 20
0.0
 30
0.0
  0
XRECORD
  5
1AC
102
{ACAD_REACTORS
330
18F
102
}
330
18F
100
AcDbXrecord
 10
0.0
 20
0.0
 30
0.0
  0
XRECORD
  5
1AD
102
{ACAD_REACTORS
330
18F
102
}
330
18F
100
AcDbXrecord
 10
0.0
 20
0.0
 30
0.0
  0
XRECORD
  5
1AA
102
{ACAD_REACTORS
330
18F
102
}
330
18F
100
AcDbXrecord
 10
0.0
 20
0.0
 30
0.0
  0
XRECORD
  5
1A7
102
{ACAD_REACTORS
330
18F
102
}
330
18F
100
AcDbXrecord
340
0
  0
XRECORD
  5
1A8
102
{ACAD_REACTORS
330
18F
102
}
330
18F
100
AcDbXrecord
 70
     0
  0
XRECORD
  5
19B
102
{ACAD_REACTORS
330
18F
102
}
330
18F
100
AcDbXrecord
  1
{BA6C8164-B4A4-49DD-A70D-E9D90C2B251F}
  0
ENDSEC
  0
EOF
